***

Animal Джаз – три полоски аккорды

20-07-2011, 13:07Гитара / Лирические

Animal Джаз – три полоски

E||--------------1p0------------|--------------1p0-------1----3---|
H||-------3-------------1-------|-------3------------1------------|
G||----2-----2------------------|----2-----2----------------------|
D||-0---------------------------|-0-------------------------------|
A||-----------------------------|---------------------------------|
E||-----------------------------|---------------------------------|
E||---------------1p0-----------|---------------------------|
H||-------3--------------1------|---------------------------|
G||----3-----3------------------|----------2---2---0--------|
D||-----------------------------|-------3-------------------|
A||-1---------------------------|----3----------------------|
E||-----------------------------|-1-------------------------|

 

Когда играете аккорд Dm в куплете, на словах “Как же” отпускаете во время боя первую струну.

Затем на слове “произошло” отпускаете первую струну, затем тут же снова ставим палец обратно и мизинец на 3 ладу первой струны. На видео это будет разобрано.

Когда ставите аккорд B в куплете, то на слове “опять можно отпускать палец, который зажимает все струны.

Dm

Как же произошло

B                              F

Жизнь опять, словно белый лист

Dm

Мажет красками холст

B                                 F

Красно-желтым – ее каприз

Dm

Ночь все перевернет

B                           F

И оставит боль на потом

Dm                       B                              F

Точно еще повезет с теплом

F                            Dm

Джинсы порезаны, лето

Am

Три полоски на кедах,

B

Под теплым дождем…

F                      Dm

Ты снова лучше всех,

Am

А дачу, маму, билеты

B

Мы переживем…

Зайди в знакомый подъезд

Поднимись на восьмой этаж

Смотри, как солнышко ест

Этот мир, он уже не наш

Скоро наступит сентябрь

SMS\’ом пришлет пароль

Он оденет тебя в новую любовь

*Следующие две строчки играть вот под этот перебор*

E||-----------------------------|-------------------------------|
H||-------3s5---3s1-------------|-------3---------3s6----5------|
G||----2------------------------|----3-----3--------------------|
D||-0---------------------------|-------------------------------|
A||-----------------------------|-1-----------------------------|
E||-----------------------------|-------------------------------|
E||-----------------------------|---------------------0---------|
H||-----------------------------|-------3----------1-----1------|
G||---------------0р2--0--------|----2----------2-----------2---|
D||-------3--3------------------|-0----------2-----------------2|
A||----3------------------------|-------------------------------|
E||-1---------------------------|-------------------------------|

Лишь несколько слов, могут убить

Но если веришь в любовь, стоит еще жить

И снова припев.

*В конце можно один раз провести аккорд Bm*

 


Ключевые слова: Animal ДжаZ три полоски

Слушать на гитаре Animal Джаз – три полоски онлайн + Аккорды и текст / слова

После прослушивания Animal Джаз – три полоски песни, оставляйте пожалуйста ВАШИ отзывы и впечатления.

Права в отношении файлов принадлежат их законным правообладателям. Весь контент - бесплатный.

Добавление комментария

Ваше Имя:
Ваш E-Mail:
Текст:
Вопрос:
ПЯTЬ+2=
Ответ:*
Введите код
с картинки:*
Кликните на изображение чтобы обновить код, если он неразборчив
Навигация
Сейчас слушают
ПОСЛЕДНИЕ КОММЕНТАРИИ
Оставь голос!

Сколько времени вы играете на гитаре?



КАЛЕНДАРЬ
«    Август 2017    »
ПнВтСрЧтПтСбВс
 123456
78910111213
14151617181920
21222324252627
28293031 

"Лучшие песни под гитару. Онлайн" "Проект 1dimka.RU" Сборник новых песен под гитару, mp3, мп3, хиты, а так же просто хорошие песни на любимой гитаре разных жанров: лирические, про любовь, армейские, дворовые, блатные, бардовские у костра, для начинающих, подбираем гитарные аккорды, публикуем слова, тексты, клипы, онлайн, все это можно скачать бесплатно, без регистрации, без смс, ваши комментарии - ваша благодарность 1Dimka.RU - онлайн гитарный партал для вас!!! По оформлению сайта, багам и поводу общих вопросов и интересующих вас тем обращайтесь к администратору.