Я зашёл просто так аккорды

 

Я зашел просто так 

Вступление 

E---7-----8-----7----------3-----5-----3----------5-----7-----5----------2-----3-----2------| 
B----0-----0-----0----------0-----0-----0----------0-----0-----0----------0-----0-----0-----| 
G-----0-----0----------------0-----0----------------0-----0-----------------0-----0-----------| 
D-------------------------------------------------------------------------------------------------| 
A---7-----7-----7----------3-----3-----3----------5-----5-----5----------2-----2-----2------| 
E-------------------------------------------------------------------------------------------------| 

E----7-----8-----7----------5-----7-----5----------3-----5-----3----- 
B-----0-----0-----0----------0-----0-----0----------0-----0-----0---- 
G------0-----0----------------0-----0-----------------0-----0--------- 
D------------------------------------------------------------------------ 
A----7-----7-----7----------5-----5-----5----------3-----3-----3---- 
E------------------------------------------------------------------------ 

E-----2-----3-----2-2-2-----3---5-0---2---5-0---2---3-----2-----3-2----- 
B------0-----0----------0-----0----------0----------0----------3------------ 
G-------0----------------0-----0----------0----------0----------0----------- 
D------------------------------------------------------------------------------- 
A-----2-----2-----0-0-2-----2----------2----------3---3-----2-----2-2----- 
E-------------------------------------------------------------------------------- 

Куплет - | Em | C9 | Am | H7 | 2 раза 
Припев | С | D | Em | - 4 раза


Я зашел просто так, в этот вечер к тебе
Просто холодно стало, этим вечером мне,
Я узнал, что и ты в этом доме живешь,
А я шел и твердил, что меня ты поймешь…

Я зашел, позвонил, мне супруг дверь открыл
Извините, сказал, что друзьям помешал.
И обоим смущенным, я ладони пожал,
А твою, почему то на миг задержал…

У тебя зразу вдруг, заблестели глаза,
А супруг все смотрел на тебя на меня,
Он не знал, что давно, совсем до него
Вот за этим столом был хозяином я,
И улыбка твоя, озарила меня
И ты вовсе была не его а моя…….


Ключевые слова: о ней про любовь воспоминания

Слушать на гитаре Я зашёл просто так онлайн + Аккорды и текст / слова

После прослушивания Я зашёл просто так песни, оставляйте пожалуйста ВАШИ отзывы и впечатления.

Права в отношении файлов принадлежат их законным правообладателям. Весь контент - бесплатный.

Добавление комментария

Ваше Имя:
Ваш E-Mail:
Текст:
Вопрос:
ПЯTЬ+2=
Ответ:*
Введите код
с картинки:*
Кликните на изображение чтобы обновить код, если он неразборчив
Навигация
Сейчас слушают
ПОСЛЕДНИЕ КОММЕНТАРИИ
Играй с людьми
Оставь голос!

Сколько времени вы играете на гитаре?



КАЛЕНДАРЬ
«    Декабрь 2017    »
ПнВтСрЧтПтСбВс
 123
45678910
11121314151617
18192021222324
25262728293031

"Лучшие песни под гитару. Онлайн" "Проект 1dimka.RU" Сборник новых песен под гитару, mp3, мп3, хиты, а так же просто хорошие песни на любимой гитаре разных жанров: лирические, про любовь, армейские, дворовые, блатные, бардовские у костра, для начинающих, подбираем гитарные аккорды, публикуем слова, тексты, клипы, онлайн, все это можно скачать бесплатно, без регистрации, без смс, ваши комментарии - ваша благодарность 1Dimka.RU - онлайн гитарный партал для вас!!! По оформлению сайта, багам и поводу общих вопросов и интересующих вас тем обращайтесь к администратору.