нагитаре

Любэ - Давай за аккорды

28-03-2011, 23:31Гитара


Любэ - Давай за
Вступление:
    F#m               Hm6             C#                F#m
E |---------4---2---|-4-----2---16-14-|-----1---5---4---|-4-----2---16-14-|
H |-----2-----------|-----3-----------|---2---2---0-0-2-|-----2-----------|
G |---2---2---2---2-|---4---4---------|-----------------|---2-------------|
D |-4---------------|-4---------------|-3---------------|-4-----4---------|
A |-----------------|-----------------|-----------------|-----------------|
E |-----------------|-----------------|-----------------|-----------------|
    F#m               Hm6             C#                F#m
E |---------4---2---|-4-----2---16-14-|-----1---5---4---|-4-----2---16-14-|
H |---2-2-0-0-------|-----3-----------|---2-2-0-0-----2-|-----2-----------|
G |---2---2---2-2-1-|---4-------------|-----------2-2-1-|---2-1-----------|
D |-4---------------|-6-----4---------|-3---------------|-6-----4---------|
A |-----------------|-----------------|-----------------|-----------------|
E |-----------------|-----------------|-----------------|-----------------|
F#m       Hm              E
 Война-и-на-и-най-на-и-на-а
          A               F#m
 Война-и-на-и-най-на-и-на-а
          Hm              E
 Война-и-на-и-най-на-и-на-а
          C#
 Война-и-на-и-на-и-на-и-на
F#m
 Серыми тучами небо затянуто
Hm
 Нервы гитарной струною оттянуты
C#
 Дождь барабанит с утра и до вечера
F#m
 Время застывшее кажется вечностью
Нас раскидали по всем направлениям
Танки пехота огонь артиллерия
Нас убивают, но мы выживаем
И снова в атаку себя мы бросаем 
Припев:
F#m        Hm                      E
 Давай за жизнь, давай брат до конца
           A                      F#m 
 Давай за тех, кто с нами был тогда
           Hm                     E
 Давай за жизнь давай брат до конца
          C#                      
 Помянем тех, кто с нами был тогда
Небо над нами свинцовыми тучами
Стелится низко туманами рваными
Хочется верить, что всё уже кончилось
Только бы выжил товарищ раненый
Ты потерпи, браток, не умирай пока
Будешь ты жить ещё долго и счастливо
Будем на свадьбе твоей мы отплясывать
Будешь ты в небо детишек подбрасывать
Давай за жизнь, держись, брат, до конца
Давай за тех, кто дома ждёт тебя
Давай за жизнь, будь проклята война
Давай за тех, кто дома ждёт (тебя)
Давай за них, давай за нас
И за Сибирь, и за Кавказ
За свет далёких городов
И за друзей, и за любовь
Давай за вас, давай за нас
И за десант, и за спецназ
За боевые ордена
Давай поднимем, старина
В старом альбоме нашёл фотографии
Деда, он был командир красной армии
«Сыну на память, Берлин 45-го»
Века ушедшего воспоминания
Запах травы на рассвете не скошенной
Стоны земли от бомбёжек распаханной
Пара солдатских ботинок истоптанных
Войнами новыми, войнами старыми
Gm         Cm     
 Давай за жизнь...
F          B    
 Давай за тех...
Gm         Cm       
 Давай за жизнь...
F         D
 Давай помянем тех, кто с нами был...

Ключевые слова: Любэ

Слушать на гитаре Любэ - Давай за онлайн + Аккорды и текст / слова

После прослушивания Любэ - Давай за песни, оставляйте пожалуйста ВАШИ отзывы и впечатления.

Стол заказов | Правила сайта | Правообладателям Внимание! Все песни находятся на сайте НАГИТАРЕ.РФ

нагитаре

Права в отношении файлов принадлежат их законным правообладателям. Весь контент - бесплатный.
avatar
#1
Crash45: 21 июля 2011 00:12
  • Группа: Опытный гитарист
  • IP:
  • Регистрация: 5.04.2011
  • Комментариев: 76
я эту песню играю боем(V_V^^^V^V^)

Добавление комментария

Ваше Имя:
Ваш E-Mail:
Текст:
Вопрос:
ПЯTЬ+2=
Ответ:*
Введите код
с картинки:*
Кликните на изображение чтобы обновить код, если он неразборчив
Навигация
***
Сейчас слушают
ПОСЛЕДНИЕ КОММЕНТАРИИ
***
Оставь голос!

Сколько времени вы играете на гитаре?



КАЛЕНДАРЬ
«    Март 2021    »
ПнВтСрЧтПтСбВс
1234567
891011121314
15161718192021
22232425262728
293031 

"Лучшие песни под гитару. Онлайн" "Проект 1dimka.RU" Сборник новых песен под гитару, mp3, мп3, хиты, а так же просто хорошие песни на любимой гитаре разных жанров: лирические, про любовь, армейские, дворовые, блатные, бардовские у костра, для начинающих, подбираем гитарные аккорды, публикуем слова, тексты, клипы, онлайн, все это можно скачать бесплатно, без регистрации, без смс, ваши комментарии - ваша благодарность 1Dimka.RU - онлайн гитарный партал для вас!!! По оформлению сайта, багам и поводу общих вопросов и интересующих вас тем обращайтесь к администратору.