нагитаре

Алексин - Дискотеки аккорды

8-04-2011, 20:41Гитара / Алексин
[media=http://www.youtube.com/watch?v=Hvx0Dkz-qOY]

Алексин - Дискотеки
Обозначения:
h - hammer on
р - pull off
/ - slide


Intro:
E|--5/1---1-0--0-1---3--0-1--0h1/3---------0-----------------|
H|----------------------------------3---3------5--5----------|
G|-----------------------------------------------------------|
D|-----------------------------------------------------------|
A|-----------------------------------------------------------|
E|-----------------------------------------------------------|



Verse 1:
__________Dm______________F________________C_________________Dm
E|-------1----|-------1-----|-------0------|-------0h1p0-----|
H|-------3----|-------1-----|-------1------|--------------3--|
G|----2-----2-|----2-----2--|----0-----0---|-----------------|
D|-0----------|-------------|--------------|-0---------------|
A|------------|-------------|-3------------|-----------------|
E|------------|-1-----------|--------------|-----------------|

В Алексине крутые дискотеки

E|-------1----|-------1-----|-------0------|-------0h1p0-----|
H|-------3----|-------1-----|-------1------|--------------3--|
G|----2-----2-|----2-----2--|----0-----0---|-----------------|
D|-0----------|-------------|--------------|-0---------------|
A|------------|-------------|-3------------|-----------------|
E|------------|-1-----------|--------------|-----------------|

Здесь телки ребятам для потехи.

E|-------1----|-------------|-----0--------|------0h1p0------|
H|-------3----|-----3--1--1-|-----1--------|-------------3---|
G|----2-----2-|-3---------2-|--0-----0-----|-----------------|
D|-0----------|-3---------3-|--------------|-0---------------|
A|------------|-1---------3-|--------------|-----------------|
E|------------|-------------|--------------|-----------------|

О - о - о - о

E|-------1----|-------------|-----0--------|------0h1p0------|
H|-------3----|-----3--1--1-|-----1--------|-------------3---|
G|----2-----2-|-3---------2-|--0-----0-----|-----------------|
D|-0----------|-3---------3-|--------------|-0---------------|
A|------------|-1---------3-|--------------|-----------------|
E|------------|-------------|--------------|-----------------|

На - на - на - на - на


В Алексине крутые дискотеки
Здесь телки ребятам для потехи.
О-о - о-о На-на-на-на-на

Они одеты в модные прикиды,
Болеют всем пока что кроме СПИДа
О-о - о-о На-на-на-на-на

Как сигареты дорогими стали
Они бычки в подъездах собирали
О-о - о-о И на тротуарах и в мужских писсуарах

За раз пол тонны семечек сгрызают,
Плюют себе под ноги и харкают
Всегда мимо урны,все очень культурно

Девчонок не найти в библиотеке,
Зато они всегда на дискотеке
О-о - о-о На-на-на-на-на

А перед ней на кухне самогонку квасят,
Их от нее втыкает и колбасит
О-о - о-о На-на-на-на-на

Они все номера у тачек знают,
По номе рам мужчин определяют
И их колеса глотают,от них кукушка вылетает

Ну а вообще они хорошие девчонки
Их по простому называют просто телки
Но им не обидно,так, даже солидно.
----------------------------------------------------------------------------------------------------------------
Dm _____F_____C____Am
В Алексине крутые дискотеки
__Dm_____F_______C
Здесь телки ребятам для потехи.
Am___Dm_F __C___Am__Dm__D_F_C_Am
О-о - о-о_____На-на-на-на-на-на

(2) Они одеты в модные прикиды,
Болеют всем пока что кроме СПИДа
О-о - о-о На-на-на-на-на-на

(3) Как сигареты дорогими стали
Они бычки в подъездах собирали

О-о - о-о И на тротуарах и в мужских писсуарах

(4) За раз пол тонны семечек сгрызают,
Плюют себе под ноги и харкают
Всегда мимо урны, все очень культурно

(5) Девчонок не найти в библиотеке,
Зато они всегда на дискотеке
О-о - о-о На-на-на-на-на-на

(6) А перед ней на кухне самогонку квасят,
Их от нее втыкает и колбасит
О-о - о-о На-на-на-на-на-на

(7) Они все номера у тачек знают,
По номерам мужчин определяют
И их колеса глотают, от них кукушка вылетает

(8) Ну а вообще они хорошие девчонки
Их по простому называют просто телки
Но им не обидно, так, даже солидно.


Ключевые слова: Алексин

Слушать на гитаре Алексин - Дискотеки онлайн + Аккорды и текст / слова

После прослушивания Алексин - Дискотеки песни, оставляйте пожалуйста ВАШИ отзывы и впечатления.

Стол заказов | Правила сайта | Правообладателям Внимание! Все песни находятся на сайте НАГИТАРЕ.РФ

нагитаре

Права в отношении файлов принадлежат их законным правообладателям. Весь контент - бесплатный.

Добавление комментария

Ваше Имя:
Ваш E-Mail:
Текст:
Вопрос:
ПЯTЬ+2=
Ответ:*
Введите код
с картинки:*
Кликните на изображение чтобы обновить код, если он неразборчив
Навигация
***
Сейчас слушают
ПОСЛЕДНИЕ КОММЕНТАРИИ
***
Оставь голос!

Сколько времени вы играете на гитаре?



КАЛЕНДАРЬ
«    Февраль 2021    »
ПнВтСрЧтПтСбВс
1234567
891011121314
15161718192021
22232425262728

"Лучшие песни под гитару. Онлайн" "Проект 1dimka.RU" Сборник новых песен под гитару, mp3, мп3, хиты, а так же просто хорошие песни на любимой гитаре разных жанров: лирические, про любовь, армейские, дворовые, блатные, бардовские у костра, для начинающих, подбираем гитарные аккорды, публикуем слова, тексты, клипы, онлайн, все это можно скачать бесплатно, без регистрации, без смс, ваши комментарии - ваша благодарность 1Dimka.RU - онлайн гитарный партал для вас!!! По оформлению сайта, багам и поводу общих вопросов и интересующих вас тем обращайтесь к администратору.