нагитаре

Scorpions - Wind Of Change аккорды


Scorpions - Wind Of Change

ВСТУПЛЕНИЕ:
e|5--7--8----5--7--8--10-8----5--7--8----5--7--8--10-8---
(e)-8--10--12--13-12--8--10---5--8---7---|
Примечание: ВСТУПЛЕНИЕ повторить после куплета 1 и в конце

Для куплетов 1, 2, 3:
C Dm C Dm
e|--(0------------------0-----------0-1-3-0--0-1-0---0-----
H|1----3-1/3/1)--1-1--3---1-3---3-3----------------3---3---
G|---------------------------------------------------------

C G
----------|(e)
---1---0--|(H)
-2--------|(G)

Примечание: 1/3/1 - slide с 1 лада на 3 и назад
(то, что в скобках играется в начале куплета 3,
а в других просто пропускается)


Для ПРИПЕВов 1, 2:
C G Dm C G Dm G
e|0------0-1--1-1--1-3-1--0---0--------0-1--1-1--1-3-1----
H|---3--3-------------------3----3-3--3-------------------

C G
0---0-----1-0---|(e)
--3----1-1----3-|(H)


Для куплета 4:
Am C Am G
e|------------0---------------------------------0-----
H|----------1---1---1-0--0-1--0---------------1---3---
G|2--2-2--2---------------------2---2--2-2--2---------

C Dm E7
------------------0---0--0-0-0--1--0-------0--1---0---0-
-1-0--0-0--0-1--3-------------------3--3-3----------3---
--------------------------------------------------------

---0-5-7-8-7---0-5-7-8-7-8-12~--|(e)
--------------------------------|(H)
--------------------------------|(G)

Примечание: 12~ - вибрато

===========================================================
СЛОВА:

1 I folow the Moskva
Down to Gorky Park
Listening to the wind of change
An August summer night
Soldiers passing by
Listening to the wind of change
--------------------------------------------
2. The world is closing in
Did you ever think
That we could be so close, like brothers
The future?s in the air
I can feel it everywhere
Blowing with the wind of change
---------------------------------------------
ПРИПЕВ 1:
Take me to the magic of the moment
On a glory night
Where the children of tomorrow dream away
In the wind of change
---------------------------------------------

3. Walking down the street
Distant memories
Are buried in the past forever
I folow the Moskva
Down to Gorky Park
Listening to the wind of change
---------------------------------------------
ПРИПЕВ 2:
Take me to the magic of the moment
On a glory night
Where the children of tomorrow share their dreams
With you and me
ПРИПЕВ 1:
----------------------------------------------

4. The wind of change
Blows straight into the face of time
Like a stormwind that will ring the freedom bell
For peace of mind
Let your balalaika sing
What my guitar wants to say
----------------------------------------------
ПРИПЕВ 2:
ПРИПЕВ 1:
===========================================================
Данная версия - партия для соло-гитары -
переложена на акустику.
Играть лучше на двух акустических гитарах: одна - соло, другая - аккорды.
(Но на электричестве - ни с чем не сравнимо! ;-) )
Вот, вроде бы, и всё.

Ключевые слова: Scorpions - Wind Of Change

Слушать на гитаре Scorpions - Wind Of Change онлайн + Аккорды и текст / слова

После прослушивания Scorpions - Wind Of Change песни, оставляйте пожалуйста ВАШИ отзывы и впечатления.

Стол заказов | Правила сайта | Правообладателям Внимание! Все песни находятся на сайте НАГИТАРЕ.РФ

нагитаре

Права в отношении файлов принадлежат их законным правообладателям. Весь контент - бесплатный.

Добавление комментария

Ваше Имя:
Ваш E-Mail:
Текст:
Вопрос:
ПЯTЬ+2=
Ответ:*
Введите код
с картинки:*
Кликните на изображение чтобы обновить код, если он неразборчив
Навигация
***
Сейчас слушают
ПОСЛЕДНИЕ КОММЕНТАРИИ
***
Оставь голос!

Сколько времени вы играете на гитаре?



КАЛЕНДАРЬ
«    Февраль 2021    »
ПнВтСрЧтПтСбВс
1234567
891011121314
15161718192021
22232425262728

"Лучшие песни под гитару. Онлайн" "Проект 1dimka.RU" Сборник новых песен под гитару, mp3, мп3, хиты, а так же просто хорошие песни на любимой гитаре разных жанров: лирические, про любовь, армейские, дворовые, блатные, бардовские у костра, для начинающих, подбираем гитарные аккорды, публикуем слова, тексты, клипы, онлайн, все это можно скачать бесплатно, без регистрации, без смс, ваши комментарии - ваша благодарность 1Dimka.RU - онлайн гитарный партал для вас!!! По оформлению сайта, багам и поводу общих вопросов и интересующих вас тем обращайтесь к администратору.