Воспоминания о былой любви аккорды
нагитаре

Король и шут - Воспоминания о былой любви аккорды

[media=http://www.youtube.com/watch?v=Fwg1QVmhHbQ]
vospominaniya-o-byloy-lyubvi.mp3 [8,72 Mb] (cкачиваний: 7)


Король и шут - Воспоминания о былой любви

 


[/spoiler]



Em Am D
E--------------------0---------0-------0----2--3--2--0-----
H----------------------0-------1--1--3------3-----------3--
G------------------------0-----2------------2--------------
D--------1--2--4--5--------0---2---------------------------
A--2--4----------------------------------------------------
E----------------------------------------------------------

G C Am H7
E-------------0---0------------0---0----------2-----------
H-------------1-----1----------1-----1--------0----------
G--------0----0--------0-------2-------2------2-----------
D-----0-------2-----------2----2---------2----1------------
A-------------3----------------0--------------2-----------
E--3----------0-------------------------------0----------


Em Am D G
Дремлет за горой мрачный замок мой,
C Am H
Душу мучает порой царящий в нём покой.
Я твоих фантазий страждущий герой,
О любви моей живой все образы со мной.

Припев:
Em Am D H Em
Я часто вижу страх в смотрящих на меня глазах
Am D G C Am
Им суждено уснуть в моих стенах, застыть в моих мирах.
Em Am D H Em
Вновь сердце от любви горит моя душа болит.
Am D G C Am H
И восковых фигур прекрасен вид, покой везде царит.

Я их приводил в свой прекрасный дом,
Их вином поил и развлекались мы потом.
Иногда у них лёгкий был испуг
От прикосновений к нежной шеи крепких рук.

Припев.

Вот несёт одна мне свои цветы,
вот стоит другая погруженная в мечты.
я пытался их до смерти рассмешить,
но пришлось как в старой сказке просто задушить.

Припев.


Ключевые слова: Король и шут про любовь

Слушать на гитаре Король и шут - Воспоминания о былой любви онлайн + Аккорды и текст / слова

После прослушивания Король и шут - Воспоминания о былой любви песни, оставляйте пожалуйста ВАШИ отзывы и впечатления.

Стол заказов | Правила сайта | Правообладателям Внимание! Все песни находятся на сайте НАГИТАРЕ.РФ

нагитаре

Права в отношении файлов принадлежат их законным правообладателям. Весь контент - бесплатный.

Добавление комментария

Ваше Имя:
Ваш E-Mail:
Текст:
Вопрос:
ПЯTЬ+2=
Ответ:*
Введите код
с картинки:*
Кликните на изображение чтобы обновить код, если он неразборчив
Навигация
***
Сейчас слушают
ПОСЛЕДНИЕ КОММЕНТАРИИ
***
Оставь голос!

Сколько времени вы играете на гитаре?



КАЛЕНДАРЬ
«    Апрель 2021    »
ПнВтСрЧтПтСбВс
 1234
567891011
12131415161718
19202122232425
2627282930 

"Лучшие песни под гитару. Онлайн" "Проект 1dimka.RU" Сборник новых песен под гитару, mp3, мп3, хиты, а так же просто хорошие песни на любимой гитаре разных жанров: лирические, про любовь, армейские, дворовые, блатные, бардовские у костра, для начинающих, подбираем гитарные аккорды, публикуем слова, тексты, клипы, онлайн, все это можно скачать бесплатно, без регистрации, без смс, ваши комментарии - ваша благодарность 1Dimka.RU - онлайн гитарный партал для вас!!! По оформлению сайта, багам и поводу общих вопросов и интересующих вас тем обращайтесь к администратору.