Мечта была аккорды

Мечта была

Перебор наподобии такого
Am
|---------------------------------------------------|
|---------1-----0-----1-----3-----1----0-----1------|
|------2-----2-----2-----2-----2-----2----2-----2---|
|---------------------------------------------------|
|---0-----------------------------------------------|
|---------------------------------------------------|
 
Am
В полумраке на столе, бумаги лист лежит
C
Дрожь в руке и след карандаша зачем бежит
G
Не догнать его потока бурного реки
Am
И в ушах и сердце разрываю на куски
Солнце пляшет, мы с тобой вдвоём наедине
Освежится в речке бурной предложила мне
Я не знал что так бывает отошёл всего на миг
Было поздно я услышал лишь последний крик
F G Am
Не помогут слезы не вернуть обратно
Я не буду плакать даже если надо

Припев:
Am F G
Просто мечта одна была чтобы просто ты жила
E Am
И чтобы жизнь твоя дотла не сгорела никогда
На зло судьбы твоей каприз все желанья не сбылись
Те мечты твои о том как постороим дом
В котором будем жить и ты и я (и ты и я)
В котором всё и даже воздух для тебя (есть)

День четвёртый КПЗ, решётка, темнота
Молодой сержант и беспонтовые слова
Мне не надо объяснять я понял всё без слов
Просто это наказанье за мою любовь
Просто с первых дней твой папа не любил меня
И не раз меня встречали папины друзья
А теперь судья знакомый папин как на зло
Что сказать тебе в глаза ну чтож не повезло

Не помогут слезы не вернуть обратно
Я не буду плакать даже если надо
Припев:
Am F G
Просто мечта одна была чтобы просто ты жила
E Am
И чтобы жизнь твоя дотла не сгорела никогда
На зло судьбы твоей каприз все желанья не сбылись
Те мечты твои о том как постороим дом
В котором будем жить и ты и я (и ты и я)
В котором всё и даже воздух для тебя (есть)

Ключевые слова: Мечта лист бумага дрож

Слушать на гитаре Мечта была онлайн + Аккорды и текст / слова

После прослушивания Мечта была песни, оставляйте пожалуйста ВАШИ отзывы и впечатления.

Права в отношении файлов принадлежат их законным правообладателям. Весь контент - бесплатный.
avatar
#18
vitales94: 28 марта 2012 03:58
  • Группа: Опытный гитарист
  • IP:
  • Регистрация: 27.12.2011
  • Комментариев: 163
Зачем вы пишите табы в конментарии видите же что ни чего не понятно!А бой тут v_vv^^vvv

avatar
#17
mulaw: 27 марта 2012 01:14
  • Группа: Гости
  • IP:
  • Регистрация: --
  • Комментариев: 0
помогите с боем. не могу разобраться

avatar
#16
Ирина: 11 февраля 2012 22:10
  • Группа: Гости
  • IP:
  • Регистрация: --
  • Комментариев: 0
песня просто супер, не нарадуюсь)) love

avatar
#15
danil41011: 25 декабря 2011 11:55
  • Группа: Местные
  • IP:
  • Регистрация: 25.12.2011
  • Комментариев: 1
Перебор
|------------------------------------|------------------------------------|
|-----1---0---1---3---1---0---1---|-----1---0---1---3---1--- 0---1----|
|---2---2---2---2---2---2---2---2-|---2---2---2---2---2---2---2---2-|
|------------------------------------|--3---------------- -----------------|
|-0----------------------------------|----------------------------------|
|------------------------------------|------ ------------------------------|

|---------3---1---0-----------------|------------------------------------|
|-----0---------------3---1---0-----|-----1---0---1---3---1- --1---1---|
|---0---0---0---0---0---0---0---0-|---2---2---2---2---2---2---2---2-|
|------------------------------------|------------------ ------------------|
|-2----------------------------------|-0---------------------------------|
|------------------------------------|----- -------------------------------|

avatar
#14
Михаил: 23 декабря 2011 23:54
  • Группа: Гости
  • IP:
  • Регистрация: --
  • Комментариев: 0
А не проще было бы просто весь перебор выложить ?
Am F
|------------------------------------|------------------------------------|
|-----1---0---1---3---1---0---1---|-----1---0---1---3---1--- 0---1----|
|---2---2---2---2---2---2---2---2-|---2---2---2---2---2---2---2---2-|
|------------------------------------|------------------- -----------------|
|-0----------------------------------|-3---------------------------------|
|------------------------------------|------ ------------------------------|
G Am
|---------3---1---0-----------------|------------------------------------|
|-----0---------------3---1---0-----|-----1---0---1---3---1- --1---1---|
|---0---0---0---0---0---0---0---0-|---2---2---2---2---2---2---2---2-|
|------------------------------------|------------------ ------------------|
|-2----------------------------------|-0---------------------------------|
|------------------------------------|----- -------------------------------|

avatar
#13
LIKA: 22 декабря 2011 14:46
  • Группа: Гости
  • IP:
  • Регистрация: --
  • Комментариев: 0
песня просто класс...... слёзы наворачиваются........ блин только играть сложно.

avatar
#12
вова: 21 декабря 2011 16:55
  • Группа: Гости
  • IP:
  • Регистрация: --
  • Комментариев: 0
скиньте пожалуйста на fedyachkinvladimir@mail.ru ноты этой песни

avatar
#11
WooFeR: 27 ноября 2011 11:26
  • Группа: Местные
  • IP:
  • Регистрация: 5.07.2011
  • Комментариев: 6
меня тип сзади..такой взгляд:" Похуй."))

avatar
#10
WooFeR: 26 ноября 2011 16:28
  • Группа: Местные
  • IP:
  • Регистрация: 5.07.2011
  • Комментариев: 6
ваще ништяк...типу респект)

avatar
#9
psh: 17 ноября 2011 22:08
  • Группа: Местные
  • IP:
  • Регистрация: 17.11.2011
  • Комментариев: 1
Просто класс! блин не получается петь одновременно с перебором, сбиваюсь angry

avatar
#8
79174983150: 11 ноября 2011 15:11
  • Группа: Местные
  • IP:
  • Регистрация: 26.09.2011
  • Комментариев: 5
по сравнению с тем что я играю легко ну а так суперски

avatar
#7
God: 10 ноября 2011 19:30
  • Группа: Гости
  • IP:
  • Регистрация: --
  • Комментариев: 0
Реально клёвая пенся....А главное давольно таки простая в исполнении.....И спасибо За урок! winked Очень помог)

avatar
#6
Владыка: 31 октября 2011 16:17
  • Группа: Гости
  • IP:
  • Регистрация: --
  • Комментариев: 0
Парень, чётко сыграл, голос суперский. Вапще мего респект. Побольше бы таких песен пой.

avatar
#5
БутОво РулиТ): 25 октября 2011 02:11
  • Группа: Гости
  • IP:
  • Регистрация: --
  • Комментариев: 0
=)) какие знакомые люди тут))) wink

avatar
#4
DeMoNxak: 23 октября 2011 16:44
  • Группа: Местные
  • IP:
  • Регистрация: 23.10.2011
  • Комментариев: 1
пацанчик, да те на сцену надо, молодчик ваше!!!!!!
красава, ну просто нет слов!)))))))))))))))) B)

avatar
#3
1Dimka: 22 октября 2011 19:48
  • Группа: Админ
  • IP:
  • Регистрация: 25.12.2009
  • Комментариев: 231
lisanski, спасибо добавил видео разбора
Patria o muerte! Или мы их - или они нас, братва, третьего не дано.

avatar
#2
lisanski: 22 октября 2011 18:52
  • Группа: Местные
  • IP:
  • Регистрация: 21.10.2011
  • Комментариев: 2
http://www.youtube.com/watch?v=FSkcklgUAwc

avatar
#1
lisanski: 21 октября 2011 15:36
  • Группа: Местные
  • IP:
  • Регистрация: 21.10.2011
  • Комментариев: 2
Очень красиво ! Что музыка, что спел - просто нет слов - красота! очень понравилась песня !

Нашел разбор этой песни - скачал (щас залью на ЮТУБ и добалю)

Добавление комментария

Ваше Имя:
Ваш E-Mail:
Текст:
Вопрос:
ПЯTЬ+2=
Ответ:*
Введите код
с картинки:*
Кликните на изображение чтобы обновить код, если он неразборчив
Навигация
***
Сейчас слушают
ПОСЛЕДНИЕ КОММЕНТАРИИ
***
Оставь голос!

Сколько времени вы играете на гитаре?



КАЛЕНДАРЬ
«    Сентябрь 2019    »
ПнВтСрЧтПтСбВс
 1
2345678
9101112131415
16171819202122
23242526272829
30 

"Лучшие песни под гитару. Онлайн" "Проект 1dimka.RU" Сборник новых песен под гитару, mp3, мп3, хиты, а так же просто хорошие песни на любимой гитаре разных жанров: лирические, про любовь, армейские, дворовые, блатные, бардовские у костра, для начинающих, подбираем гитарные аккорды, публикуем слова, тексты, клипы, онлайн, все это можно скачать бесплатно, без регистрации, без смс, ваши комментарии - ваша благодарность 1Dimka.RU - онлайн гитарный партал для вас!!! По оформлению сайта, багам и поводу общих вопросов и интересующих вас тем обращайтесь к администратору.