Тема из КФ Джентельмены удачи » Лучшие песни под гитару
нагитаре

Тема из КФ Джентельмены удачи аккорды

9-04-2011, 01:56Гитара / Мелодии

Тема из КФ Джентельмены удачи

E||---------------------------------------------------------------------|
B||--6--8--6--5--6-----6--8--6--5--6--------10-10-10--9-9--8--10--7—6-6-|
G||----------------6------------------6--6------------------------------|
D||---------------------------------------------------------------------|
A||---------------------------------------------------------------------|
E||---------------------------------------------------------------------|

E||-----10-10--9--10--9--8--7-7-6--7--6--6--5-5--6--5--6----6-----------|
B||--6----------------------------------------------------7----5—-4-4---|
G||---------------------------------------------------------------------|
D||---------------------------------------------------------------------|
A||---------------------------------------------------------------------|
E||---------------------------------------------------------------------|


--------------------------------------------------------------------------------

Часть 1:
1|--------------------------------------------------------
2|--0----1--0-----0----------0----1--0-----0-----------0--
3|-------------3-------0----------------3-------0---------

1|--3--2--0-----------------------------------------------
2|-----------0----3--1--0--1----0---------0---------------
3|---------------------------------2----------------------

1|----------------------------------------------------------
2|--3--1--0--1------------------3--1--0--1------------------
3|----------------2--------2------------------2--------2----

1|--------------------------------------------------------
2|--3--1--0-------1--0----------1--0-----------------0----
3|-----------2----------2--0------------------------------


Часть 2:
1|----------------------------------------------------------
2|--1--0-----0-------------0----1--0-----0-------------0----
3|--------3-------0-------------------3-------0------------

1|--3--2--0-----------------------------------------0-----
2|-----------0----3--1--0--1----0-------------------------
3|---------------------------------2----------------------

1|--5--3--2--3----0-------------5--3--2--3-------0-----0----
2|----------------------------------------------------------
3|----------------------------------------------------------

1|--5--3--5--3----3--2----------2--0----------------------
2|----------------------4--0------------------------------
3|--------------------------------------------------------


------------------------------------------------------------------------------------------------------------------------------------

Часть 1:
_____Em
1|---------------------------------------------------------------
2|--0----1--0-----0-------------0----1--0-----0-------------0----
3|-------------3-------0--------0----------3-------0--------0----
4|------------------------2-----2---------------------2-----2----
5|---------------------------------------------------------------
6|---------------------------0---------------------------0-------

_____________________________________Am
1|--3--2--0-----------------------------------------------
2|--0--------0----3--1--0--1----0-------------------------
3|--0------------------------------2-----2-----2----2-----
4|---------------------------------2-----2-----2----2-----
5|------------------------------------------0-------------
6|------------------------------------0-----------0-------


1|----------------------------------------------------------
2|--3--1--0--1------------------3--1--0--1------------------
3|----------------2--------2------------------2--------2----
4|-------------------2-----2---------------------2-----2----
5|--0-------------------0---------------------------0-------
6|----------------------------------------------------------

______________________H7
1|--------------------------------------------------------
2|--3--1--0-------1--0----------1--0-----0-----0-----0----
3|--0--------2----------2--0-------2-----2-----2-----2----
4|------------------------------------------1-------------
5|------------------------------------0-----------0-------
6|--------------------------------------------------------


Часть 2:
_____Em
1|----------------------------------------------------------
2|--1--0-----0-------------0----1--0-----0-------------0----
3|--------3-------0--------0----------3-------0--------0----
4|-------------------2-----2---------------------2-----2----
5|----------------------------------------------------------
6|----------------------0---------------------------0-------

_____________________________________Am
1|--3--2--0-----------------------------------------------
2|--0--------0----3--1--0--1----0-------------------------
3|--0------------------------------2-----2-----2----2-----
4|---------------------------------2-----2-----2----2-----
5|------------------------------------------0-------------
6|------------------------------------0-----------0-------

______________________D______________G_______________C
1|--5--3--2--3----2--------2----5--3--2--3----2--0-----0----
2|--5-------------------3------------------------1-----1----
3|--5----------------2---------------------------------0----
4|----------------0-------------0---------------------------
5|--0-----------------------------------------------3-------
6|----------------------------------------------------------

_____Am_____________________________Em
1|--5--3--5--3----3--2----------2--0----------------------
2|--5-------------------4--0-------0----------------------
3|--5------------------------------0----------------------
4|--------------------------------------------------------
5|--0-----------------------------------------------------
6|------------------------------0-------------------------

Ключевые слова: Джентельмен удача

Слушать на гитаре Тема из КФ Джентельмены удачи онлайн + Аккорды и текст / слова

После прослушивания Тема из КФ Джентельмены удачи песни, оставляйте пожалуйста ВАШИ отзывы и впечатления.

Стол заказов | Правила сайта | Правообладателям Внимание! Все песни находятся на сайте НАГИТАРЕ.РФ

нагитаре

Права в отношении файлов принадлежат их законным правообладателям. Весь контент - бесплатный.
avatar
#1
Axel: 14 апреля 2012 18:51
  • Группа: Гости
  • IP:
  • Регистрация: --
  • Комментариев: 0
Да... У нас тут ретро...

P.S.

Мелодия сама классная, ты молодец, но басы на 5-тых и 6-ыт струнах ты не раставил. Недоконченая мелодия получается. belay 1

Добавление комментария

Ваше Имя:
Ваш E-Mail:
Текст:
Вопрос:
ПЯTЬ+2=
Ответ:*
Введите код
с картинки:*
Кликните на изображение чтобы обновить код, если он неразборчив
Навигация
***
Сейчас слушают
ПОСЛЕДНИЕ КОММЕНТАРИИ
***
Оставь голос!

Сколько времени вы играете на гитаре?



КАЛЕНДАРЬ
«    Июнь 2021    »
ПнВтСрЧтПтСбВс
 123456
78910111213
14151617181920
21222324252627
282930 

"Лучшие песни под гитару. Онлайн" "Проект 1dimka.RU" Сборник новых песен под гитару, mp3, мп3, хиты, а так же просто хорошие песни на любимой гитаре разных жанров: лирические, про любовь, армейские, дворовые, блатные, бардовские у костра, для начинающих, подбираем гитарные аккорды, публикуем слова, тексты, клипы, онлайн, все это можно скачать бесплатно, без регистрации, без смс, ваши комментарии - ваша благодарность 1Dimka.RU - онлайн гитарный партал для вас!!! По оформлению сайта, багам и поводу общих вопросов и интересующих вас тем обращайтесь к администратору.