нагитаре

Ламбада (табулатура) аккорды

21-07-2011, 13:05Гитара / Мелодии

Ламбада (табулатура)

Классика! Чудо гавайской мысли!
e---2-0---------------------------------------------------------|
B-------5-4-1--1-5-4-1-0-1--------------------------------------|
G--------------------------4-1-3--------------------------------|
D---------------------------------------------------------------|
A---------------------------------------------------------------|
E---------------------------------------------------------------|
e---2-0---------------------------------------------------------|
B-------5-4-1--1-5-4-1-0-1--------------------------------------|
G--------------------------4-1-3--------------------------------|
D---------------------------------------------------------------|
A---------------------------------------------------------------|
E---------------------------------------------------------------|
e---0-0-0----------2--0-----------------------------------------|
B---------5------1------5------1-5-4--3-0-1-0--1-0-1------------|
G-----------5--5----------5--5----------------------------------|
D---------------------------------------------------------------|
A---------------------------------------------------------------|
E---------------------------------------------------------------|
e---0-0-0----------2--0-----------------------------------------|
B---------5------1------5------1-5-4--1--3-1-0--5-5-4-5-4--1~3--|
G-----------5--5----------5--5----------------------------------|
D---------------------------------------------------------------|
A---------------------------------------------------------------|
E---------------------------------------------------------------|

Ключевые слова: Ламбада табулатура

Слушать на гитаре Ламбада (табулатура) онлайн + Аккорды и текст / слова

После прослушивания Ламбада (табулатура) песни, оставляйте пожалуйста ВАШИ отзывы и впечатления.

Стол заказов | Правила сайта | Правообладателям Внимание! Все песни находятся на сайте НАГИТАРЕ.РФ

нагитаре

Права в отношении файлов принадлежат их законным правообладателям. Весь контент - бесплатный.

Добавление комментария

Ваше Имя:
Ваш E-Mail:
Текст:
Вопрос:
ПЯTЬ+2=
Ответ:*
Введите код
с картинки:*
Кликните на изображение чтобы обновить код, если он неразборчив
Навигация
***
Сейчас слушают
ПОСЛЕДНИЕ КОММЕНТАРИИ
***
Оставь голос!

Сколько времени вы играете на гитаре?



КАЛЕНДАРЬ
«    Сентябрь 2020    »
ПнВтСрЧтПтСбВс
 123456
78910111213
14151617181920
21222324252627
282930 

"Лучшие песни под гитару. Онлайн" "Проект 1dimka.RU" Сборник новых песен под гитару, mp3, мп3, хиты, а так же просто хорошие песни на любимой гитаре разных жанров: лирические, про любовь, армейские, дворовые, блатные, бардовские у костра, для начинающих, подбираем гитарные аккорды, публикуем слова, тексты, клипы, онлайн, все это можно скачать бесплатно, без регистрации, без смс, ваши комментарии - ваша благодарность 1Dimka.RU - онлайн гитарный партал для вас!!! По оформлению сайта, багам и поводу общих вопросов и интересующих вас тем обращайтесь к администратору.