Румба (ДиДюЛя) аккорды

21-07-2011, 15:00Гитара / Мелодии

Румба (ДиДюЛя)

E|--/-----------------------------------------------------------/--------------|
B|--/-----------------------------------------------------------/--------------|
G|--/---7---7-6-4-6-4h6p4-6-7-4-4h6p4-6-7-4-9-7h9p7-6-6-/-4-4-4------4---------|
D|--/-4---4-----------------------------------------------------/--5---5--5--5-|
A|--/-----------------------------------------------------------/--------------|
E|--/-----------------------------------------------------------/--------------|
E|-----------------------------------------------------------------------------|
B|-----------------------------------------------------------------------------|
G|--------------------9---9--9--11-9h11p9---7---7---7---9--7h9p7---------------|
D|---4---4---4---4-11-11-11---------------9---9---9---------------11---12---11-|
A|-5---5---5---5---------------------------------------------------------------|
E|-----------------------------------------------------------------------------|
E|-----------------------------------------------------------------------------|
B|----15----15-14-12-14-12h14p12-14-15--12--12h14p12--14-15-17-15h17p15--14-14-|
G|-11----11--------------------------------------------------------------------|
D|-----------------------------------------------------------------------------|
A|-----------------------------------------------------------------------------|
E|-----------------------------------------------------------------------------|
E|-----------------------------------------------------------------------------|
B|----12----12----12----12-----------------------------------------------------|
G|-12----12----12----12----11----11----11----11-------9-----9-----9--11.9h11p9-|
D|-------------------------12----12----12----12-------11----11---11------------|
A|-----------------------------------------------------------------------------|
E|-----------------------------------------------------------------------------|
E|--------------------------/-------/------------------------------------------|
B|--------------------------/-------/------------------------------------------|
G|---7---7----7-9-7h9p7-----/-------/------------------------------------------|
D|-9---9---9-------------11-/-------/------------------------------------------|
A|--------------------------/-------/-5--7--9--5--5--7--9--12--7-9-4-5-7.5.4.2-|
E|--------------------------/-------/------------------------------------------|
D|-----------------------------------------------------------------------------|
A|-4-5-7-5-4-2-5-7-9-12-7-9--17--14--9--7--9--17--16--13--9--7--9--4.5-7-5.4-2-|
E|-----------------------------------------------------------------------------|
E|-----------------------------------------------------------------------------|
B|-------------------15-----15-14-12-14-12h14p12-14--15--12-12h14p12--14.15-12-|
G|-----------------------11----------------------------------------------------|
D|-----------------------------------------------------------------------------|
A|-4-5-7-5-4-2-5--4------------------------------------------------------------|
E|-----------------------------------------------------------------------------|
E|-----------------------------------------------------------------------------|
B|-12h14p12-14--15--17--15h17p15--14---14-----12-----12-----12-------12--------|
G|-----------------------------------------------------12-----12-----12-----12-|
D|-----------------------------------------------------------------------------|
A|-----------------------------------------------------------------------------|
E|-----------------------------------------------------------------------------|
B|-----------------------------------------------------------------------------|
G|----11---11---11---11----9----9---9--11.9h11p9--7---7----7--9---7h9p7--------|
D|-12---12---12---12---11---11--11------------------9---9---9---------------11-|
    *********
E|-/---------/-----------------------------------------------------------------|
B|-/---------/-----12-----12----12----12---------------------------------------|
G|-/---------/-12-----12----12----12------11--11--11--11-----9-----9-----9--11-|
D|-/---------/----------------------------12--12--12--12-----11----11---11-----|
A|-/---------/-----------------------------------------------------------------|
E|-/---------/-----------------------------------------------------------------|
                                    *********
E|-----------------------------------------------------------/--------------/-|
B|-----------------------------------------------------------/--------------/-|
G|-------9h11p9----------7---7----7--9---7h9p7---------------/--------------/-|
D|-----------------------9---9---9-------------------11------/--------------/-|
A|-----------------------------------------------------------/--------------/-|
E|-----------------------------------------------------------/--------------/-|
E|---------------------------------|
B|--------5--3---------------------|
G|-----------------6--4--3---------|
D|----------------------------5--4-|

Ключевые слова: Румба (ДиДюЛя)

Слушать на гитаре Румба (ДиДюЛя) онлайн + Аккорды и текст / слова

После прослушивания Румба (ДиДюЛя) песни, оставляйте пожалуйста ВАШИ отзывы и впечатления.

Права в отношении файлов принадлежат их законным правообладателям. Весь контент - бесплатный.

Добавление комментария

Ваше Имя:
Ваш E-Mail:
Текст:
Вопрос:
ПЯTЬ+2=
Ответ:*
Введите код
с картинки:*
Кликните на изображение чтобы обновить код, если он неразборчив
Навигация
***
Сейчас слушают
ПОСЛЕДНИЕ КОММЕНТАРИИ
***
Оставь голос!

Сколько времени вы играете на гитаре?



КАЛЕНДАРЬ
«    Июль 2019    »
ПнВтСрЧтПтСбВс
1234567
891011121314
15161718192021
22232425262728
293031 

"Лучшие песни под гитару. Онлайн" "Проект 1dimka.RU" Сборник новых песен под гитару, mp3, мп3, хиты, а так же просто хорошие песни на любимой гитаре разных жанров: лирические, про любовь, армейские, дворовые, блатные, бардовские у костра, для начинающих, подбираем гитарные аккорды, публикуем слова, тексты, клипы, онлайн, все это можно скачать бесплатно, без регистрации, без смс, ваши комментарии - ваша благодарность 1Dimka.RU - онлайн гитарный партал для вас!!! По оформлению сайта, багам и поводу общих вопросов и интересующих вас тем обращайтесь к администратору.