Многоточие - От тебя » Лучшие песни под гитару
нагитаре

Многоточие - От тебя аккорды

6-04-2011, 10:29РеП


Многоточие - От тебя
Вся тема:

|------------1-0-------3--------1----3-----0--------1-0-----3--------1----3------|
|----1------3----3----3-3-3----1----3-----1-3-1----3---3---3-3-3----1----3-------|
|---2------2---------0---0----2----0-----2--------2-------0---0----2----0--------|
|--2------0--------------------------------------0-------------------------------|
|-0--------------------------3----------0-------------------------3---------0----|
|-------------------3-------------3----------------------3-------------3---------|

В песне

Темная дорога, неровный подходняк. За струей конроля - в бояне порожняк...
|------------------------1--0-------------3--------------------1-------3---|
|--------1-------------3-------3--------3---3---3------------1-------3-----|
|------2-------------2----------------0-------0------------2-------0-------|
|----2-------------0-------------------------------------------------------|
|--0----------------------------------------------------3------------------|
|----------------------------------3-----------------------------3---------|

Темные подъезды, прокуреные ночи... Никому не верящие больше очи
|---------0----------------1--0-------------3--------------1------3------|
|-------1---3--1---------3-------3--------3---3---3-------1------3-------|
|-----2----------------2----------------0-------0--------2------0--------|
|--------------------0---------------------------------------------------|
|--0---------------------------------------------------3-------------0---|
|--------------------------------------3----------------------3----------|

Текст:
Темная дорога, неровный походняк.
Со струей контроля в бояне порожняк.
Темные подъезды, прокуренные ночи,
Никому не верящие больше очи

Я одинок и один. Ты одинока, но с кем-то.
Жизнь медленно ползет наша до финишной ленты.
По календарю потерь снова закрыта дверь в серый апрель.
В душе бешеный зверь.
Капли дождя по лицу. Вновь иду прочь.
Ноги по привычке заводят меня в ночь.
Закутываю боль в одеяло темноты.
Вспоминаю то, что мне оставила ты.
Сладкий запах любви - первые недели.
Годы разлуки, что так долго летели.
Эти темные ночи, бесполезные дни.
Потерянные люди, странные сны.
Радости жизни, бьющие в печень.
Перечень болей этой жизни бесконечен.
Бег от себя, ментовские мушки.
В чьи-то головы вбитые кружки.
Камни страдания, птицы желания и прощание, прощание…
Серый пепел сгоревшего огня –
Все, что мне осталось от тебя.

Темная дорога, неровный походняк.
Со струей контроля в бояне порожняк.
Темные подъезды, прокуренные ночи,
Никому не верящие больше очи

Темная дорога, неровный походняк.
Со струей контроля в бояне порожняк.
Темные подъезды, прокуренные ночи,
Никому не верящие больше очи


Ключевые слова: многоточие

Слушать на гитаре Многоточие - От тебя онлайн + Аккорды и текст / слова

После прослушивания Многоточие - От тебя песни, оставляйте пожалуйста ВАШИ отзывы и впечатления.

Стол заказов | Правила сайта | Правообладателям Внимание! Все песни находятся на сайте НАГИТАРЕ.РФ

нагитаре

Права в отношении файлов принадлежат их законным правообладателям. Весь контент - бесплатный.

Добавление комментария

Ваше Имя:
Ваш E-Mail:
Текст:
Вопрос:
ПЯTЬ+2=
Ответ:*
Введите код
с картинки:*
Кликните на изображение чтобы обновить код, если он неразборчив
Навигация
***
Сейчас слушают
ПОСЛЕДНИЕ КОММЕНТАРИИ
***
Оставь голос!

Сколько времени вы играете на гитаре?



КАЛЕНДАРЬ
«    Апрель 2021    »
ПнВтСрЧтПтСбВс
 1234
567891011
12131415161718
19202122232425
2627282930 

"Лучшие песни под гитару. Онлайн" "Проект 1dimka.RU" Сборник новых песен под гитару, mp3, мп3, хиты, а так же просто хорошие песни на любимой гитаре разных жанров: лирические, про любовь, армейские, дворовые, блатные, бардовские у костра, для начинающих, подбираем гитарные аккорды, публикуем слова, тексты, клипы, онлайн, все это можно скачать бесплатно, без регистрации, без смс, ваши комментарии - ваша благодарность 1Dimka.RU - онлайн гитарный партал для вас!!! По оформлению сайта, багам и поводу общих вопросов и интересующих вас тем обращайтесь к администратору.