нагитаре

Народные - Цыганочка аккорды

10-04-2011, 22:36Гитара / Мелодии

Народные - Цыганочка
E-3-1-3-1-1-0-1-0-0---0---------0--3-1-3-1-1-0-1-0-0-0-2-4-5-5
H-------------------3---3-3-1-3-------------------------------
G-------------------------------------------------------------
D-0--------------------------------0--------------------------
A---------0---------------0----------------0---------------0--
E-----------------0--------------------------------0----------

Вот пpостенькая основная тема , Ей можно аккомпониpовать на 2-ой гитаpе
аккоpдами : Dm ,Am ,E(7) ,Am ,A(7), - и повтоpяешь это сколько захотишь.
А вот типа ваpиации ( можно втоpой гитаpе ) :


E-------5-7-5-------5-7-5-------4-5-4-------5-7-5-7-5---------
H-----6---6-6-----5---5-5-----3---3-3-----5---5-5-5-5---------
G---7-----7-7---5-----5-5---4-----4-4---5-----5-5-5-5---------
D-0-----------------------------------------------------------
A-------------0-----------------------0-----------------------
E-------------------------0-----------------------------------


E---5-7-5---5-7-5---4-5-4---5-5-5--
H---6-6-6---5-5-5---3-3-3---5-5-5--
G---7-7-7---5-5-5---4-4-4---5-5-5--
D-0--------------------------------
A---------0---------------0--------
E-----------------0----------------

А потом что-то типа солло :

E-12-10-12-10-10-8-10-8-8-7-8-7-7-5-7-5-----------------------4-5-4-3-2-----
H---------------------------------------8-6-8-6-6-5-6-5-5-5-7---------------
G---------------------------------------------------------------------------


E-----------------------4-5-5-
H-8-6-8-6-6-5-6-5-5-5-7-----5-
G---------------------------5-
A---------------------------0-


Добавление

I------------1—3-1-----------0-1-0----------0----------------------0-1-0--------
I---------3------------------1----------------0---3-0---------------1-----------
I------2------------------2-----------------1---------------------2-------------
I----0--------------------------------------------------------------------------
I---------------------0-----------------2-------------------0-------------------
I-------------------------------------------------------------------------------

==========================================================================================================
E||----------0-----|----------0-----|----------0-----|----1-0-----------|
B||--------3----3--|--------3----3--|--------2----2--|--3-----3---------|
G||------3------3--|------2------2--|------0------0--|----------2-------|
D||----0--------0--|----0--------0--|----2--------2--|--0---------3-2-0-|
A||----------------|----------------|--0-------------|------------------|
E||--3-------------|--1-------------|----------------|------------------|


----------0---0---|----------0---0---|----------1-0-----|------------------|
--------3---3---3-|--------3---3---3-|--------2-----3-2-|--3---------------|
------3-----------|------2-----------|------0-----------|----2-------------|
----0-------------|----3-------------|----2-------------|--0---3-2-0-------|
--------------1---|--0---------------|----------0-------|------------3-1-0-|
--3---------------|--------------1---|--0---------------|------------------|


----------0-----|----------0-----|----------0-----|----1-0-----------|
--------3----3--|--------3----3--|--------2----2--|--3-----3---------|
------3------3--|------2------2--|------0------0--|----------2-------|
----0--------0--|----0--------0--|----2--------2--|--0---------3-2-0-|
----------------|----------------|--0-------------|------------------|
--3-------------|--1-------------|----------------|------------------|


----------0---0---|----------0---0---|----------1-0-----|------------------|
--------3---3---3-|--------3---3---3-|--------2-----3-2-|--3---------------|
------3-----------|------2-----------|------0-----------|----2-------------|
----0-------------|----3-------------|----2-------------|--0---3-2-0-------|
--------------1---|--0---------------|----------0-------|------------3-1-0-|
--3---------------|--------------1---|--0---------------|------------------|


-----0-----0--|-----0--------|-----0-----0--|-----0--------|-----0--------|
-----3-----3--|-----3-----3--|-----2-----2--|-----3-----3--|-----3-----3--|
-----3-----0--|-----2-----2--|-----3-----3--|-----2-----5--|-----3-----3--|
--------------|-----------0--|--------------|-----------0--|-----------0--|
--------1-----|--0-----------|--------------|--------------|--------------|
--3-----------|--------1-----|--0-----3-----|--1-----2-----|--3-----4-----|


-----0--------|-----0-----0--|-----0--------|-----0-----0--|-----0--------|
-----3-----3--|-----3--------|-----3-----3--|-----3-----3--|-----3-----3--|
-----2-----0--|-----1-----0--|-----2-----2--|-----3-----0--|-----2-----2--|
-----------0--|--------------|--0--------0--|--------------|-----------0--|
--0-----1-----|--2-----4-----|--------------|--------1-----|--0-----------|
--------------|--------------|--------1-----|--3-----------|--------1-----|


-----0-----0--|-----0--------|-----0--------|-----0--------|-----0-----0--|
-----2-----2--|-----3-----3--|-----3-----3--|-----3-----3--|-----3--------|
-----3-----3--|-----2-----5--|-----3-----3--|-----2-----0--|-----1-----0--|
--------------|-----------0--|-----------0--|-----------0--|--------------|
--------------|--------------|--------------|--0-----1-----|--2-----4-----|
--0-----3-----|--1-----2-----|--3-----4-----|--------------|--------------|


-----0--------|----------0-----|----------0-----|----------0-----|
-----3-----3--|----3--------3--|----3--------3--|----2--------2--|
-----2-----2--|------3------3--|------2------2--|------0------0--|
--0--------0--|--------0-------|--------0-------|--------2-------|
--------------|----------------|----------------|--0-------0-----|
--------1-----|--3-------3-----|--1-------1-----|----------------|


----------0-----|----0-----0-----|----0-----0-----|----------0-----|
----3-0------3--|------3------3--|------3------3--|----2--------2--|
-------------4--|--------3----0--|--------2----2--|------0------0--|
--------3-------|----------------|----------------|--------2-------|
----------------|----------1-----|--0-------------|----------0-----|
--4-------4-----|--3-------------|----------1-----|--0-------------|


---------0------|----------0-----|----------0-----|----------0-----|
---------3------|----3--------3--|----3--------3--|----2--------2--|
---------2------|------3------3--|------2------2--|------0------0--|
--0------3------|--------0-------|--------0-------|--------2-------|
----------------|----------------|----------------|--0-------0-----|
----------------|--3-------3-----|--1-------1-----|----------------|


----------0-----|----0-----0-----|----0-----0-----|----------0-----|
----3-0------3--|------3------3--|------3------3--|----2--------2--|
-------------4--|--------3----0--|--------2----2--|------0------0--|
--------3-------|----------------|----------------|--------2-------|
----------------|----------1-----|--0-------------|----------0-----|
--4-------4-----|--3-------------|----------1-----|--0-------------|


---------0------||
---------3------||
---------2------||
--0------3------||
----------------||
----------------||

Ключевые слова: Народные Цыганочка

Слушать на гитаре Народные - Цыганочка онлайн + Аккорды и текст / слова

После прослушивания Народные - Цыганочка песни, оставляйте пожалуйста ВАШИ отзывы и впечатления.

Стол заказов | Правила сайта | Правообладателям Внимание! Все песни находятся на сайте НАГИТАРЕ.РФ

нагитаре

Права в отношении файлов принадлежат их законным правообладателям. Весь контент - бесплатный.

Добавление комментария

Ваше Имя:
Ваш E-Mail:
Текст:
Вопрос:
ПЯTЬ+2=
Ответ:*
Введите код
с картинки:*
Кликните на изображение чтобы обновить код, если он неразборчив
Навигация
***
Сейчас слушают
ПОСЛЕДНИЕ КОММЕНТАРИИ
***
Оставь голос!

Сколько времени вы играете на гитаре?



КАЛЕНДАРЬ
«    Март 2021    »
ПнВтСрЧтПтСбВс
1234567
891011121314
15161718192021
22232425262728
293031 

"Лучшие песни под гитару. Онлайн" "Проект 1dimka.RU" Сборник новых песен под гитару, mp3, мп3, хиты, а так же просто хорошие песни на любимой гитаре разных жанров: лирические, про любовь, армейские, дворовые, блатные, бардовские у костра, для начинающих, подбираем гитарные аккорды, публикуем слова, тексты, клипы, онлайн, все это можно скачать бесплатно, без регистрации, без смс, ваши комментарии - ваша благодарность 1Dimka.RU - онлайн гитарный партал для вас!!! По оформлению сайта, багам и поводу общих вопросов и интересующих вас тем обращайтесь к администратору.